  0
SECTION
  2
HEADER
  9
$ACADVER
  1
AC1009
  9
$INSBASE
 10
35.256208
 20
10.40331999999999
 30
0.0
  9
$EXTMIN
 10
35.256208
 20
10.40331999999999
 30
0.0
  9
$EXTMAX
 10
63.234465
 20
36.11764099999999
 30
0.0
  9
$LIMMIN
 10
0.0
 20
0.0
  9
$LIMMAX
 10
420.0
 20
297.0
  9
$ORTHOMODE
 70
     0
  9
$REGENMODE
 70
     1
  9
$FILLMODE
 70
     1
  9
$QTEXTMODE
 70
     0
  9
$MIRRTEXT
 70
     0
  9
$DRAGMODE
 70
     2
  9
$LTSCALE
 40
1.0
  9
$OSMODE
 70
     0
  9
$ATTMODE
 70
     1
  9
$TEXTSIZE
 40
3.5
  9
$TRACEWID
 40
0.05
  9
$TEXTSTYLE
  7
STANDARD
  9
$CLAYER
  8
0
  9
$CELTYPE
  6
BYLAYER
  9
$CECOLOR
 62
   256
  9
$DIMSCALE
 40
1.0
  9
$DIMASZ
 40
2.5
  9
$DIMEXO
 40
1.0
  9
$DIMDLI
 40
8.0
  9
$DIMRND
 40
0.0
  9
$DIMDLE
 40
0.0
  9
$DIMEXE
 40
2.0
  9
$DIMTP
 40
0.1
  9
$DIMTM
 40
0.1
  9
$DIMTXT
 40
3.5
  9
$DIMCEN
 40
2.0
  9
$DIMTSZ
 40
0.0
  9
$DIMTOL
 70
     0
  9
$DIMLIM
 70
     0
  9
$DIMTIH
 70
     0
  9
$DIMTOH
 70
     0
  9
$DIMSE1
 70
     0
  9
$DIMSE2
 70
     0
  9
$DIMTAD
 70
     1
  9
$DIMZIN
 70
     8
  9
$DIMBLK
  1

  9
$DIMASO
 70
     0
  9
$DIMSHO
 70
     0
  9
$DIMPOST
  1

  9
$DIMAPOST
  1

  9
$DIMALT
 70
     0
  9
$DIMALTD
 70
     2
  9
$DIMALTF
 40
25.39999999999999
  9
$DIMLFAC
 40
1.0
  9
$DIMTOFL
 70
     1
  9
$DIMTVP
 40
0.0
  9
$DIMTIX
 70
     0
  9
$DIMSOXD
 70
     0
  9
$DIMSAH
 70
     0
  9
$DIMBLK1
  1

  9
$DIMBLK2
  1

  9
$DIMSTYLE
  2
*UNNAMED
  9
$DIMCLRD
 70
     0
  9
$DIMCLRE
 70
     0
  9
$DIMCLRT
 70
     0
  9
$DIMTFAC
 40
1.0
  9
$DIMGAP
 40
0.09
  9
$LUNITS
 70
     2
  9
$LUPREC
 70
     3
  9
$SKETCHINC
 40
0.1
  9
$FILLETRAD
 40
20.0
  9
$AUNITS
 70
     0
  9
$AUPREC
 70
     3
  9
$MENU
  1

  9
$ELEVATION
 40
0.0
  9
$PELEVATION
 40
0.0
  9
$THICKNESS
 40
0.0
  9
$LIMCHECK
 70
     0
  9
$BLIPMODE
 70
     0
  9
$CHAMFERA
 40
0.0
  9
$CHAMFERB
 40
0.0
  9
$SKPOLY
 70
     1
  9
$TDCREATE
 40
2449111.553774189
  9
$TDUPDATE
 40
2449393.439396875
  9
$TDINDWG
 40
0.0004945602
  9
$TDUSRTIMER
 40
0.0004945602
  9
$USRTIMER
 70
     1
  9
$ANGBASE
 50
0.0
  9
$ANGDIR
 70
     0
  9
$PDMODE
 70
     3
  9
$PDSIZE
 40
2.0
  9
$PLINEWID
 40
0.0
  9
$COORDS
 70
     2
  9
$SPLFRAME
 70
     0
  9
$SPLINETYPE
 70
     6
  9
$SPLINESEGS
 70
     8
  9
$ATTDIA
 70
     1
  9
$ATTREQ
 70
     1
  9
$HANDLING
 70
     1
  9
$HANDSEED
  5
CD
  9
$SURFTAB1
 70
     6
  9
$SURFTAB2
 70
     6
  9
$SURFTYPE
 70
     6
  9
$SURFU
 70
     6
  9
$SURFV
 70
     6
  9
$UCSNAME
  2

  9
$UCSORG
 10
0.0
 20
0.0
 30
0.0
  9
$UCSXDIR
 10
1.0
 20
0.0
 30
0.0
  9
$UCSYDIR
 10
0.0
 20
1.0
 30
0.0
  9
$PUCSNAME
  2

  9
$PUCSORG
 10
0.0
 20
0.0
 30
0.0
  9
$PUCSXDIR
 10
1.0
 20
0.0
 30
0.0
  9
$PUCSYDIR
 10
0.0
 20
1.0
 30
0.0
  9
$USERI1
 70
     0
  9
$USERI2
 70
     3
  9
$USERI3
 70
    15
  9
$USERI4
 70
     0
  9
$USERI5
 70
     0
  9
$USERR1
 40
0.0
  9
$USERR2
 40
1.0
  9
$USERR3
 40
0.0
  9
$USERR4
 40
1.0
  9
$USERR5
 40
0.0
  9
$WORLDVIEW
 70
     1
  9
$SHADEDGE
 70
     3
  9
$SHADEDIF
 70
    70
  9
$TILEMODE
 70
     1
  9
$MAXACTVP
 70
    16
  9
$PINSBASE
 10
0.0
 20
0.0
 30
0.0
  9
$PLIMCHECK
 70
     0
  9
$PEXTMIN
 10
1.000000000000000E+20
 20
1.000000000000000E+20
 30
1.000000000000000E+20
  9
$PEXTMAX
 10
-1.000000000000000E+20
 20
-1.000000000000000E+20
 30
-1.000000000000000E+20
  9
$PLIMMIN
 10
0.0
 20
0.0
  9
$PLIMMAX
 10
12.0
 20
9.0
  9
$UNITMODE
 70
     0
  9
$VISRETAIN
 70
     0
  9
$PLINEGEN
 70
     0
  9
$PSLTSCALE
 70
     0
  9
$TREEDEPTH
 70
  3020
  9
$DWGCODEPAGE
  3
undefined
  0
ENDSEC
  0
SECTION
  2
TABLES
  0
TABLE
  2
VPORT
 70
     2
  0
VPORT
  2
*ACTIVE
 70
     0
 10
0.0
 20
0.0
 11
1.0
 21
1.0
 12
53.00838382289156
 22
24.3192205391311
 13
0.0
 23
0.0
 14
7.0
 24
7.0
 15
0.0
 25
0.0
 16
0.0
 26
0.0
 36
1.0
 17
0.0
 27
0.0
 37
0.0
 40
27.83180107826219
 41
1.275675675675675
 42
50.0
 43
0.0
 44
0.0
 50
0.0
 51
0.0
 71
     0
 72
 10000
 73
     1
 74
     0
 75
     0
 76
     0
 77
     0
 78
     0
  0
ENDTAB
  0
TABLE
  2
LTYPE
 70
     9
  0
LTYPE
  2
AUSGEZOGEN
 70
    64
  3
Solid line
 72
    65
 73
     0
 40
0.0
  0
LTYPE
  2
STRICHPUNKT
 70
    64
  3
____ . ____ . ____ . ____ . ____ . ____ . ____
 72
    65
 73
     4
 40
15.0
 49
10.0
 49
-2.5
 49
0.0
 49
-2.5
  0
LTYPE
  2
STRICHPUNKTA
 70
    64
  3
__ . __ . __
 72
    65
 73
     4
 40
3.6
 49
2.399999999999999
 49
-0.6
 49
0.0
 49
-0.6
  0
LTYPE
  2
STRICHA
 70
    64
  3
- - - - - 
 72
    65
 73
     2
 40
1.5
 49
1.2
 49
-0.3
  0
LTYPE
  2
STRICH
 70
    64
  3
-- -- -- -- -- -- -- -- -- -- -- -- -- -- -- 
 72
    65
 73
     2
 40
6.25
 49
5.0
 49
-1.25
  0
LTYPE
  2
ITEM-STRICH
 70
    64
  3
- - - - -
 72
    65
 73
     2
 40
1.5
 49
1.2
 49
-0.3
  0
LTYPE
  2
ITEM-STRICHGR
 70
    64
  3
-- -- -- -- -- 
 72
    65
 73
     2
 40
6.25
 49
5.0
 49
-1.25
  0
LTYPE
  2
ITEM-STRICHPUNKT
 70
    64
  3
__ . __ . __
 72
    65
 73
     4
 40
3.599999999999999
 49
2.399999999999999
 49
-0.6
 49
0.0
 49
-0.6
  0
LTYPE
  2
ITEM-STRICHPGR
 70
    64
  3
____ . ____ . ____ . ____ . ____ . ____ . ____
 72
    65
 73
     4
 40
15.0
 49
10.0
 49
-2.5
 49
0.0
 49
-2.5
  0
ENDTAB
  0
TABLE
  2
LAYER
 70
    26
  0
LAYER
  2
0
 70
     0
 62
     7
  6
AUSGEZOGEN
  0
LAYER
  2
2A
 70
     0
 62
     7
  6
STRICHPUNKT
  0
LAYER
  2
7A
 70
     0
 62
     4
  6
STRICHPUNKTA
  0
LAYER
  2
3A
 70
     0
 62
     6
  6
STRICHA
  0
LAYER
  2
8
 70
     0
 62
     1
  6
AUSGEZOGEN
  0
LAYER
  2
7
 70
     0
 62
     4
  6
STRICHPUNKT
  0
LAYER
  2
6
 70
     0
 62
     2
  6
AUSGEZOGEN
  0
LAYER
  2
5
 70
     0
 62
     3
  6
AUSGEZOGEN
  0
LAYER
  2
4
 70
     0
 62
     3
  6
AUSGEZOGEN
  0
LAYER
  2
3
 70
     0
 62
     6
  6
STRICH
  0
LAYER
  2
2
 70
     0
 62
     5
  6
AUSGEZOGEN
  0
LAYER
  2
1
 70
     0
 62
    15
  6
AUSGEZOGEN
  0
LAYER
  2
RAHM2
 70
     0
 62
     3
  6
AUSGEZOGEN
  0
LAYER
  2
RAHM3
 70
     0
 62
     7
  6
AUSGEZOGEN
  0
LAYER
  2
RAHM5
 70
     0
 62
     7
  6
AUSGEZOGEN
  0
LAYER
  2
KLIN
 70
     0
 62
     9
  6
AUSGEZOGEN
  0
LAYER
  2
INFO
 70
     0
 62
     4
  6
AUSGEZOGEN
  0
LAYER
  2
ITEM_50
 70
    64
 62
     7
  6
AUSGEZOGEN
  0
LAYER
  2
ITEM_35
 70
     0
 62
     2
  6
AUSGEZOGEN
  0
LAYER
  2
ITEM_25
 70
    64
 62
     3
  6
AUSGEZOGEN
  0
LAYER
  2
ITEM_HILFE
 70
     0
 62
     3
  6
AUSGEZOGEN
  0
LAYER
  2
ITEM_INFO
 70
     0
 62
     4
  6
AUSGEZOGEN
  0
LAYER
  2
ITEM_STP
 70
    64
 62
     4
  6
ITEM-STRICHPUNKT
  0
LAYER
  2
ITEM_STPG
 70
     0
 62
     4
  6
ITEM-STRICHPGR
  0
LAYER
  2
ITEM_GSTR
 70
     0
 62
     6
  6
ITEM-STRICH
  0
LAYER
  2
ITEM_GSTRG
 70
     0
 62
     6
  6
ITEM-STRICHGR
  0
ENDTAB
  0
TABLE
  2
STYLE
 70
     5
  0
STYLE
  2
STANDARD
 70
     0
 40
0.0
 41
1.0
 50
0.0
 71
     0
 42
3.5
  3
iso
  4

  0
STYLE
  2
1
 70
     0
 40
0.0
 41
1.0
 50
0.0
 71
     0
 42
28.017851
  3
txt
  4

  0
STYLE
  2
2
 70
     0
 40
0.0
 41
1.0
 50
0.0
 71
     0
 42
28.017851
  3
monotxt
  4

  0
STYLE
  2
3
 70
     0
 40
0.0
 41
0.8
 50
0.0
 71
     0
 42
28.017851
  3
simplex
  4

  0
STYLE
  2
4
 70
     0
 40
0.0
 41
1.0
 50
0.0
 71
     0
 42
28.017851
  3
italic
  4

  0
ENDTAB
  0
TABLE
  2
VIEW
 70
     5
  0
VIEW
  2
1
 70
     0
 40
146.0
 10
113.5
 20
206.0
 41
207.0
 11
0.0
 21
0.0
 31
1.0
 12
0.0
 22
0.0
 32
0.0
 42
50.0
 43
0.0
 44
0.0
 50
0.0
 71
     0
  0
VIEW
  2
2
 70
     0
 40
128.0
 10
309.5
 20
218.0
 41
193.0
 11
0.0
 21
0.0
 31
1.0
 12
0.0
 22
0.0
 32
0.0
 42
50.0
 43
0.0
 44
0.0
 50
0.0
 71
     0
  0
VIEW
  2
3
 70
     0
 40
154.0
 10
127.0
 20
89.0
 41
220.0
 11
0.0
 21
0.0
 31
1.0
 12
0.0
 22
0.0
 32
0.0
 42
50.0
 43
0.0
 44
0.0
 50
0.0
 71
     0
  0
VIEW
  2
4
 70
     0
 40
155.0
 10
311.0
 20
77.5
 41
218.0
 11
0.0
 21
0.0
 31
1.0
 12
0.0
 22
0.0
 32
0.0
 42
50.0
 43
0.0
 44
0.0
 50
0.0
 71
     0
  0
VIEW
  2
5
 70
     0
 40
123.0
 10
207.0
 20
149.5
 41
184.0
 11
0.0
 21
0.0
 31
1.0
 12
0.0
 22
0.0
 32
0.0
 42
50.0
 43
0.0
 44
0.0
 50
0.0
 71
     0
  0
ENDTAB
  0
TABLE
  2
UCS
 70
     0
  0
ENDTAB
  0
TABLE
  2
APPID
 70
     1
  0
APPID
  2
ACAD
 70
    64
  0
ENDTAB
  0
TABLE
  2
DIMSTYLE
 70
     0
  0
ENDTAB
  0
ENDSEC
  0
SECTION
  2
BLOCKS
  0
ENDSEC
  0
SECTION
  2
ENTITIES
  0
LINE
  8
ITEM_50
  5
3B
 10
46.52875999999999
 20
24.61764099999999
 30
0.0
 11
46.52875999999999
 21
26.11764099999999
 31
0.0
  0
LINE
  8
ITEM_50
  5
3C
 10
42.32875999999999
 20
24.61764099999999
 30
0.0
 11
46.52875999999999
 21
24.61764099999999
 31
0.0
  0
LINE
  8
ITEM_50
  5
3D
 10
42.32875999999999
 20
36.11764099999999
 30
0.0
 11
42.32875999999999
 21
24.61764099999999
 31
0.0
  0
LINE
  8
ITEM_50
  5
3E
 10
46.52875999999999
 20
36.11764099999999
 30
0.0
 11
42.32875999999999
 21
36.11764099999999
 31
0.0
  0
ARC
  8
ITEM_50
  5
3F
 10
45.62875999999999
 20
15.40332
 30
0.0
 40
1.5
 50
287.4576749999999
 51
72.54239699999999
  0
ARC
  8
ITEM_50
  5
40
 10
39.733176
 20
11.96850399999999
 30
0.0
 40
8.0
 50
38.646371
 51
67.91078299999999
  0
ARC
  8
ITEM_50
  5
41
 10
44.02875999999999
 20
15.40332
 30
0.0
 40
2.5
 50
359.9999669999999
 51
38.646368
  0
ARC
  8
ITEM_50
  5
42
 10
42.62875999999999
 20
19.10332
 30
0.0
 40
0.3
 50
67.91077299999999
 51
180.0
  0
LINE
  8
ITEM_50
  5
43
 10
42.32875999999999
 20
19.10332
 30
0.0
 11
42.32875999999999
 21
15.40332
 31
0.0
  0
ARC
  8
ITEM_50
  5
44
 10
44.02875999999999
 20
15.40331799999999
 30
0.0
 40
2.5
 50
321.3535929999999
 51
359.999994
  0
ARC
  8
ITEM_50
  5
45
 10
39.73317899999999
 20
18.83813699999999
 30
0.0
 40
8.0
 50
292.089177
 51
321.3535889999999
  0
ARC
  8
ITEM_50
  5
46
 10
42.628758
 20
11.703319
 30
0.0
 40
0.3
 50
179.99996
 51
292.0891879999999
  0
LINE
  8
ITEM_50
  5
47
 10
42.328758
 20
11.70331999999999
 30
0.0
 11
42.32875999999999
 21
15.40332
 31
0.0
  0
LINE
  8
ITEM_STP
  5
48
 10
35.263282
 20
15.40332
 30
0.0
 11
47.870393
 21
15.40332
 31
0.0
  0
ARC
  8
ITEM_50
  5
49
 10
45.62875999999999
 20
33.61764099999999
 30
0.0
 40
1.5
 50
306.8698979999999
 51
53.130102
  0
ARC
  8
ITEM_50
  5
4A
 10
47.718763
 20
33.61764099999999
 30
0.0
 40
1.690002
 50
134.760343
 51
225.2396569999999
  0
ARC
  8
ITEM_50
  5
4B
 10
47.99689599999999
 20
28.61764099999999
 30
0.0
 40
2.899211
 50
120.4237669999999
 51
239.576233
  0
POLYLINE
  8
ITEM_50
  5
4C
 66
     1
 10
0.0
 20
0.0
 30
0.0
  0
VERTEX
  8
ITEM_50
  5
4D
 10
46.52875999999999
 20
34.81764099999999
 30
0.0
  0
VERTEX
  8
ITEM_50
  5
4E
 10
46.52875999999999
 20
36.11764099999999
 30
0.0
  0
SEQEND
  8
ITEM_50
  5
4F
  0
POLYLINE
  8
ITEM_50
  5
50
 66
     1
 10
0.0
 20
0.0
 30
0.0
  0
VERTEX
  8
ITEM_50
  5
51
 10
46.52875999999999
 20
31.11764099999999
 30
0.0
  0
VERTEX
  8
ITEM_50
  5
52
 10
46.52875999999999
 20
32.41764099999999
 30
0.0
  0
SEQEND
  8
ITEM_50
  5
53
  0
LINE
  8
ITEM_STP
  5
54
 10
44.16932299999999
 20
33.61764099999999
 30
0.0
 11
47.791102
 21
33.61764099999999
 31
0.0
  0
LINE
  8
ITEM_STP
  5
55
 10
35.256208
 20
28.61764099999999
 30
0.0
 11
47.740144
 21
28.61764099999999
 31
0.0
  0
LINE
  8
ITEM_25
  5
56
 10
41.72876
 20
30.62714099999999
 30
0.0
 11
42.32875999999999
 21
30.62714099999999
 31
0.0
  0
LINE
  8
ITEM_25
  5
57
 10
41.72876
 20
26.60814099999999
 30
0.0
 11
42.32875999999999
 21
26.60814099999999
 31
0.0
  0
LINE
  8
ITEM_25
  5
58
 10
41.72876
 20
26.60814099999999
 30
0.0
 11
39.72876
 21
26.11764099999999
 31
0.0
  0
LINE
  8
ITEM_25
  5
59
 10
41.72876
 20
30.62714099999999
 30
0.0
 11
39.72876
 21
31.11764099999999
 31
0.0
  0
LINE
  8
ITEM_50
  5
5A
 10
41.72876
 20
31.11764099999999
 30
0.0
 11
41.72876
 21
26.11764099999999
 31
0.0
  0
POLYLINE
  8
ITEM_50
  5
5B
 66
     1
 10
0.0
 20
0.0
 30
0.0
  0
VERTEX
  8
ITEM_50
  5
5C
 10
36.52875999999999
 20
23.61764099999999
 30
0.0
  0
VERTEX
  8
ITEM_50
  5
5D
 10
36.82875999999999
 20
23.61764099999999
 30
0.0
  0
VERTEX
  8
ITEM_50
  5
5E
 10
39.32875999999999
 20
26.11764099999999
 30
0.0
  0
VERTEX
  8
ITEM_50
  5
5F
 10
39.32875999999999
 20
31.11764099999999
 30
0.0
  0
VERTEX
  8
ITEM_50
  5
60
 10
36.82875999999999
 20
33.61764099999999
 30
0.0
  0
VERTEX
  8
ITEM_50
  5
61
 10
36.52875999999999
 20
33.61764099999999
 30
0.0
  0
VERTEX
  8
ITEM_50
  5
62
 10
36.52875999999999
 20
23.61764099999999
 30
0.0
  0
SEQEND
  8
ITEM_50
  5
63
  0
LINE
  8
ITEM_50
  5
64
 10
36.82875999999999
 20
23.61764099999999
 30
0.0
 11
36.82875999999999
 21
33.61764099999999
 31
0.0
  0
POLYLINE
  8
ITEM_50
  5
65
 66
     1
 10
0.0
 20
0.0
 30
0.0
  0
VERTEX
  8
ITEM_50
  5
66
 10
39.32875999999999
 20
31.11764099999999
 30
0.0
  0
VERTEX
  8
ITEM_50
  5
67
 10
42.32875999999999
 20
31.11764099999999
 30
0.0
  0
SEQEND
  8
ITEM_50
  5
68
  0
POLYLINE
  8
ITEM_50
  5
69
 66
     1
 10
0.0
 20
0.0
 30
0.0
  0
VERTEX
  8
ITEM_50
  5
6A
 10
42.32875999999999
 20
26.11764099999999
 30
0.0
  0
VERTEX
  8
ITEM_50
  5
6B
 10
39.32875999999999
 20
26.11764099999999
 30
0.0
  0
SEQEND
  8
ITEM_50
  5
6C
  0
POLYLINE
  8
ITEM_50
  5
6D
 66
     1
 10
0.0
 20
0.0
 30
0.0
  0
VERTEX
  8
ITEM_50
  5
6E
 10
42.32875999999999
 20
12.90331999999999
 30
0.0
  0
VERTEX
  8
ITEM_50
  5
6F
 10
39.32875999999999
 20
12.90331999999999
 30
0.0
  0
SEQEND
  8
ITEM_50
  5
70
  0
POLYLINE
  8
ITEM_50
  5
71
 66
     1
 10
0.0
 20
0.0
 30
0.0
  0
VERTEX
  8
ITEM_50
  5
72
 10
39.32875999999999
 20
17.90332
 30
0.0
  0
VERTEX
  8
ITEM_50
  5
73
 10
42.32875999999999
 20
17.90332
 30
0.0
  0
SEQEND
  8
ITEM_50
  5
74
  0
LINE
  8
ITEM_50
  5
75
 10
36.82875999999999
 20
10.40331999999999
 30
0.0
 11
36.82875999999999
 21
20.40332
 31
0.0
  0
POLYLINE
  8
ITEM_50
  5
76
 66
     1
 10
0.0
 20
0.0
 30
0.0
  0
VERTEX
  8
ITEM_50
  5
77
 10
36.52875999999999
 20
10.40331999999999
 30
0.0
  0
VERTEX
  8
ITEM_50
  5
78
 10
36.82875999999999
 20
10.40331999999999
 30
0.0
  0
VERTEX
  8
ITEM_50
  5
79
 10
39.32875999999999
 20
12.90331999999999
 30
0.0
  0
VERTEX
  8
ITEM_50
  5
7A
 10
39.32875999999999
 20
17.90332
 30
0.0
  0
VERTEX
  8
ITEM_50
  5
7B
 10
36.82875999999999
 20
20.40332
 30
0.0
  0
VERTEX
  8
ITEM_50
  5
7C
 10
36.52875999999999
 20
20.40332
 30
0.0
  0
VERTEX
  8
ITEM_50
  5
7D
 10
36.52875999999999
 20
10.40331999999999
 30
0.0
  0
SEQEND
  8
ITEM_50
  5
7E
  0
LINE
  8
ITEM_50
  5
7F
 10
41.72876
 20
17.90332
 30
0.0
 11
41.72876
 21
12.90331999999999
 31
0.0
  0
LINE
  8
ITEM_25
  5
80
 10
41.72876
 20
17.41282
 30
0.0
 11
39.72876
 21
17.90332
 31
0.0
  0
LINE
  8
ITEM_25
  5
81
 10
41.72876
 20
13.39382
 30
0.0
 11
39.72876
 21
12.90331999999999
 31
0.0
  0
LINE
  8
ITEM_25
  5
82
 10
41.72876
 20
13.39382
 30
0.0
 11
42.32875999999999
 21
13.39382
 31
0.0
  0
LINE
  8
ITEM_25
  5
83
 10
41.72876
 20
17.41282
 30
0.0
 11
42.32875999999999
 21
17.41282
 31
0.0
  0
LINE
  8
ITEM_25
  5
84
 10
56.76191299999999
 20
17.41282
 30
0.0
 11
56.16191299999999
 21
17.41282
 31
0.0
  0
LINE
  8
ITEM_25
  5
85
 10
56.76191299999999
 20
13.39382
 30
0.0
 11
56.16191299999999
 21
13.39382
 31
0.0
  0
LINE
  8
ITEM_25
  5
86
 10
56.76191299999999
 20
13.39382
 30
0.0
 11
58.76191299999999
 21
12.90331999999999
 31
0.0
  0
LINE
  8
ITEM_25
  5
87
 10
56.76191299999999
 20
17.41282
 30
0.0
 11
58.76191299999999
 21
17.90332
 31
0.0
  0
LINE
  8
ITEM_50
  5
88
 10
56.76191299999999
 20
17.90332
 30
0.0
 11
56.76191299999999
 21
12.90331999999999
 31
0.0
  0
POLYLINE
  8
ITEM_50
  5
89
 66
     1
 10
0.0
 20
0.0
 30
0.0
  0
VERTEX
  8
ITEM_50
  5
8A
 10
61.961913
 20
10.40331999999999
 30
0.0
  0
VERTEX
  8
ITEM_50
  5
8B
 10
61.66191299999999
 20
10.40331999999999
 30
0.0
  0
VERTEX
  8
ITEM_50
  5
8C
 10
59.16191299999999
 20
12.90331999999999
 30
0.0
  0
VERTEX
  8
ITEM_50
  5
8D
 10
59.16191299999999
 20
17.90332
 30
0.0
  0
VERTEX
  8
ITEM_50
  5
8E
 10
61.66191299999999
 20
20.40332
 30
0.0
  0
VERTEX
  8
ITEM_50
  5
8F
 10
61.961913
 20
20.40332
 30
0.0
  0
VERTEX
  8
ITEM_50
  5
90
 10
61.961913
 20
10.40331999999999
 30
0.0
  0
SEQEND
  8
ITEM_50
  5
91
  0
LINE
  8
ITEM_50
  5
92
 10
61.66191299999999
 20
10.40331999999999
 30
0.0
 11
61.66191299999999
 21
20.40332
 31
0.0
  0
POLYLINE
  8
ITEM_50
  5
93
 66
     1
 10
0.0
 20
0.0
 30
0.0
  0
VERTEX
  8
ITEM_50
  5
94
 10
59.16191299999999
 20
17.90332
 30
0.0
  0
VERTEX
  8
ITEM_50
  5
95
 10
56.16191299999999
 20
17.90332
 30
0.0
  0
SEQEND
  8
ITEM_50
  5
96
  0
POLYLINE
  8
ITEM_50
  5
97
 66
     1
 10
0.0
 20
0.0
 30
0.0
  0
VERTEX
  8
ITEM_50
  5
98
 10
56.16191299999999
 20
12.90331999999999
 30
0.0
  0
VERTEX
  8
ITEM_50
  5
99
 10
59.16191299999999
 20
12.90331999999999
 30
0.0
  0
SEQEND
  8
ITEM_50
  5
9A
  0
POLYLINE
  8
ITEM_50
  5
9B
 66
     1
 10
0.0
 20
0.0
 30
0.0
  0
VERTEX
  8
ITEM_50
  5
9C
 10
56.16191299999999
 20
26.11764099999999
 30
0.0
  0
VERTEX
  8
ITEM_50
  5
9D
 10
59.16191299999999
 20
26.11764099999999
 30
0.0
  0
SEQEND
  8
ITEM_50
  5
9E
  0
POLYLINE
  8
ITEM_50
  5
9F
 66
     1
 10
0.0
 20
0.0
 30
0.0
  0
VERTEX
  8
ITEM_50
  5
A0
 10
59.16191299999999
 20
31.11764099999999
 30
0.0
  0
VERTEX
  8
ITEM_50
  5
A1
 10
56.16191299999999
 20
31.11764099999999
 30
0.0
  0
SEQEND
  8
ITEM_50
  5
A2
  0
LINE
  8
ITEM_50
  5
A3
 10
61.66191299999999
 20
23.61764099999999
 30
0.0
 11
61.66191299999999
 21
33.61764099999999
 31
0.0
  0
POLYLINE
  8
ITEM_50
  5
A4
 66
     1
 10
0.0
 20
0.0
 30
0.0
  0
VERTEX
  8
ITEM_50
  5
A5
 10
61.961913
 20
23.61764099999999
 30
0.0
  0
VERTEX
  8
ITEM_50
  5
A6
 10
61.66191299999999
 20
23.61764099999999
 30
0.0
  0
VERTEX
  8
ITEM_50
  5
A7
 10
59.16191299999999
 20
26.11764099999999
 30
0.0
  0
VERTEX
  8
ITEM_50
  5
A8
 10
59.16191299999999
 20
31.11764099999999
 30
0.0
  0
VERTEX
  8
ITEM_50
  5
A9
 10
61.66191299999999
 20
33.61764099999999
 30
0.0
  0
VERTEX
  8
ITEM_50
  5
AA
 10
61.961913
 20
33.61764099999999
 30
0.0
  0
VERTEX
  8
ITEM_50
  5
AB
 10
61.961913
 20
23.61764099999999
 30
0.0
  0
SEQEND
  8
ITEM_50
  5
AC
  0
LINE
  8
ITEM_50
  5
AD
 10
56.76191299999999
 20
31.11764099999999
 30
0.0
 11
56.76191299999999
 21
26.11764099999999
 31
0.0
  0
LINE
  8
ITEM_25
  5
AE
 10
56.76191299999999
 20
30.62714099999999
 30
0.0
 11
58.76191299999999
 21
31.11764099999999
 31
0.0
  0
LINE
  8
ITEM_25
  5
AF
 10
56.76191299999999
 20
26.60814099999999
 30
0.0
 11
58.76191299999999
 21
26.11764099999999
 31
0.0
  0
LINE
  8
ITEM_25
  5
B0
 10
56.76191299999999
 20
26.60814099999999
 30
0.0
 11
56.16191299999999
 21
26.60814099999999
 31
0.0
  0
LINE
  8
ITEM_25
  5
B1
 10
56.76191299999999
 20
30.62714099999999
 30
0.0
 11
56.16191299999999
 21
30.62714099999999
 31
0.0
  0
LINE
  8
ITEM_STP
  5
B2
 10
63.234465
 20
28.61764099999999
 30
0.0
 11
50.750529
 21
28.61764099999999
 31
0.0
  0
LINE
  8
ITEM_STP
  5
B3
 10
54.32135
 20
33.61764099999999
 30
0.0
 11
50.69957099999999
 21
33.61764099999999
 31
0.0
  0
POLYLINE
  8
ITEM_50
  5
B4
 66
     1
 10
0.0
 20
0.0
 30
0.0
  0
VERTEX
  8
ITEM_50
  5
B5
 10
51.961913
 20
31.11764099999999
 30
0.0
  0
VERTEX
  8
ITEM_50
  5
B6
 10
51.961913
 20
32.41764099999999
 30
0.0
  0
SEQEND
  8
ITEM_50
  5
B7
  0
POLYLINE
  8
ITEM_50
  5
B8
 66
     1
 10
0.0
 20
0.0
 30
0.0
  0
VERTEX
  8
ITEM_50
  5
B9
 10
51.961913
 20
34.81764099999999
 30
0.0
  0
VERTEX
  8
ITEM_50
  5
BA
 10
51.961913
 20
36.11764099999999
 30
0.0
  0
SEQEND
  8
ITEM_50
  5
BB
  0
ARC
  8
ITEM_50
  5
BC
 10
50.493777
 20
28.61764099999999
 30
0.0
 40
2.899211
 50
300.4237669999999
 51
59.576233
  0
ARC
  8
ITEM_50
  5
BD
 10
50.77190999999999
 20
33.61764099999999
 30
0.0
 40
1.690002
 50
314.760343
 51
45.239657
  0
ARC
  8
ITEM_50
  5
BE
 10
52.861913
 20
33.61764099999999
 30
0.0
 40
1.5
 50
126.869898
 51
233.1301019999999
  0
LINE
  8
ITEM_STP
  5
BF
 10
63.227391
 20
15.40332
 30
0.0
 11
50.62028
 21
15.40332
 31
0.0
  0
LINE
  8
ITEM_50
  5
C0
 10
56.161915
 20
11.70331999999999
 30
0.0
 11
56.16191299999999
 21
15.40332
 31
0.0
  0
ARC
  8
ITEM_50
  5
C1
 10
55.861915
 20
11.703319
 30
0.0
 40
0.3
 50
247.9108119999999
 51
0.00004
  0
ARC
  8
ITEM_50
  5
C2
 10
58.75749399999999
 20
18.83813699999999
 30
0.0
 40
8.0
 50
218.646411
 51
247.9108229999999
  0
ARC
  8
ITEM_50
  5
C3
 10
54.461913
 20
15.40331799999999
 30
0.0
 40
2.5
 50
180.000006
 51
218.6464069999999
  0
LINE
  8
ITEM_50
  5
C4
 10
56.16191299999999
 20
19.10332
 30
0.0
 11
56.16191299999999
 21
15.40332
 31
0.0
  0
ARC
  8
ITEM_50
  5
C5
 10
55.861913
 20
19.10332
 30
0.0
 40
0.3
 50
0.0
 51
112.089227
  0
ARC
  8
ITEM_50
  5
C6
 10
54.461913
 20
15.40332
 30
0.0
 40
2.5
 50
141.353632
 51
180.000033
  0
ARC
  8
ITEM_50
  5
C7
 10
58.757497
 20
11.96850399999999
 30
0.0
 40
8.0
 50
112.0892169999999
 51
141.353629
  0
ARC
  8
ITEM_50
  5
C8
 10
52.861913
 20
15.40332
 30
0.0
 40
1.5
 50
107.457603
 51
252.542325
  0
LINE
  8
ITEM_50
  5
C9
 10
51.961913
 20
36.11764099999999
 30
0.0
 11
56.16191299999999
 21
36.11764099999999
 31
0.0
  0
LINE
  8
ITEM_50
  5
CA
 10
56.16191299999999
 20
36.11764099999999
 30
0.0
 11
56.16191299999999
 21
24.61764099999999
 31
0.0
  0
LINE
  8
ITEM_50
  5
CB
 10
56.16191299999999
 20
24.61764099999999
 30
0.0
 11
51.961913
 21
24.61764099999999
 31
0.0
  0
LINE
  8
ITEM_50
  5
CC
 10
51.961913
 20
24.61764099999999
 30
0.0
 11
51.961913
 21
26.11764099999999
 31
0.0
  0
ENDSEC
  0
EOF
